Tablature za Gitaru i Bass

Tablature za Gitaru i Bass

offline
  • Pridružio: 16 Feb 2015
  • Poruke: 1

Napisano: 16 Feb 2015 16:10

Meni bi trebale tablature ili note za bass , za pesmu svecane bele kosulje . Very Happy

Dopuna: 17 Feb 2015 12:07

Evo moje inprovizacije Kosulja , ako neka zna bolju verziju neka napise , za bas Very Happy

Intro
G--------------|
D--------------|
A--------------|
E-3---5---7---|

Rif 1 Dugo hodam vec ....
G------------------------------------------|
D------------------------------------------|
A-2-2-2-2-2-2-2-0-2-2-2-2-2-2-2-2-0-|
E------------------------------------------|
Refren
G--------------|
D--------------|
A--------------|
E-3---5---7---|
Rif 2
G----------------------------------------------------------|
D----------------------------------------------------------|
A-5-----5-5-7-7-7-7-7-----------------------------------|
E-----5------------------5-7-7-7-7-7--5-7-7-7-7-7-----|



Registruj se da bi učestvovao u diskusiji. Registrovanim korisnicima se NE prikazuju reklame unutar poruka.
Ko je trenutno na forumu
 

Ukupno su 744 korisnika na forumu :: 7 registrovanih, 1 sakriven i 736 gosta   ::   [ Administrator ] [ Supermoderator ] [ Moderator ] :: Detaljnije

Najviše korisnika na forumu ikad bilo je 1798 - dana 19 Sep 2019 18:42

Korisnici koji su trenutno na forumu:
Korisnici trenutno na forumu: 4channer, ALBION101, ekser222, Kos93, krunomiletic5, pera12345, stug